America Is Not The World

(Morrissey/Whyte)
			

Intro
G |--------------------------------|--------------------------------|
D |--------------------------------|--------------------------------|
A |--------------------------------|--------------------------------|
E |-5-------------3-------------3--|-1----------------\10-----------|

Verse A
G |--------------------------------|--------------------------------|
D |--------------------------------|--------------------------------|
A |-3-------3-------3-------3------|-----3-----------5-------5------|
E |-----3---------------3----------|-1-------1-----------5----------| 2x

G |--------------------------------|--------------------------------|
D |--------------------------------|--------------------------------|
A |-----7---------------2----------|-5-------5-------7-------7------|
E |-5-------5-------0-------0------|-----5---------------7----------|

G |--------------------------------|--------------------------------|
D |--------------------------------|------------------------5-5-----|
A |-----7---------------2----------|-5-------5-----------357---7-5-7|
E |-5-------5-------0-------0------|-----5-----------3-35-----------|

Verse B
G |--------------------------------|--------------------------------|
D |--------------------------------|--------------------------------|
A |----33333--33-3-----33333--33-3-|----33333--33-3-----33333--33-3-|
E |-3-------3-------3-------3------|-1-------1-------1-------1------| 2x

G |--------------------------------|--------------------------------|
D |---------7---------------5------|---------3-----------------77-7-|
A |----77777--77-7-----55555--55-5-|----33333--33-3--5-------5------|
E |-5---------------3--------------|-1------------------55555-------|

G |--------------------------------|--------------------------------|
D |---------7---------------5------|---------3-----------------77-7-|
A |----77777--77-7-----55555--55-5-|----33333--33-3--5-------5------|
E |-5---------------3--------------|-1------------------55555-------|


Order:
[00:29] Intro
[00:40] Verse A
[01:26] Verse B



</pre>
</td></tr></table>

<p align="center">
<span class="copyright">- Tabbed by Micturion -