Boxers

(Morrissey/Whyte)
			

Intro
G |---------2----------------------|---------2----------------------|
D |-----0---------0---0-0---2---0--|-----0---------0---0-0---2------|
A |-0------------------------------|-0------------------------------|
E |--------------------------------|--------------------------------|

Verse
G |--------------------------------|---------------------2----------|
D |-------------0------------------|-----------------4-------4---2--|
A |-2-----------------------2---0--|--------------------------------|
E |--------------------------------|-0------------------------------|

Bridge
G |--------------------------------|--------------------------------|
D |-------------0---------------0--|-2--------------\4-------2---4--|
A |-2-----------------------2------|--------------------------------|
E |--------------------------------|--------------------------------|

G |-------------------------6------|-----------------2--------------|
D |-6---------------------------2--|-4-----------------------4------|
A |-------------4------------------|--------------------------------|
E |--------------------------------|--------------------------------|

G |--------------------------------|--------------------------------|
D |-0------------------------------|-2------------------------------|
A |--------------------------------|--------------------------------|
E |--------------------------------|--------------------------------|

Chorus
G |--------------------------------|--------------------------------|
D |--------------------------------|-0---0-------3--------2---0-----|
A |-0-------2---0---4-------2---4--|--------------------------------|
E |--------------------------------|--------------------------------|

G |--------------------------------|--------------------------------|
D |-----------------6---6---2---4--|-0---0-------3-------(2)-(3)----|
A |-0-------4---7------------------|--------------------------------|
E |--------------------------------|--------------------------------|

G |--------------------------------|---------2--\5-----------4--(2)-|
D |-4-----------4---2-------4---2--|-----4--------------------------|
A |---------4----------------------|-4------------------------------|
E |--------------------------------|--------------------------------|

G |-2---2---0---2---0---0---2------|--------------------------------|
D |--------------------------------|-0---0---4---2-----------4------|
A |--------------------------------|--------------------------------|
E |--------------------------------|--------------------------------|

Break
G |--------------------------------|--------------------------------|
D |---------5---4---2---0----------|---------5---4---2---0----------|
A |--------------------------------|--------------------------------|
E |-3------------------------------|-3------------------------------|

                                                                      2nd Time ending
G |--------------------------------|--------------------------------| |--------------------------------|
D |---------5---4---2---0----------|---------5---4---2---0----------| |---------2---------------4---2--|
A |-2------------------------------|-2------------------------------| |-2------------------------------|
E |--------------------------------|--------------------------------| |--------------------------------|

Order:
[00:00] Intro 2x
Block