The Smiths & Morrissey Bass Tabs

Dial A Cliche

(Morrissey/Street)
			

Verse
G |-7*----------------------4-----4|-2-----7------------------------|--------------------------------| *) 2nd time
D |---7-7-5-----4------------------|---4----------------------------|-------------0-----------0------|
A |-5------------------------------|--------------------------------|-1---------------------0--------|
E |--------------------------------|-------------------3-----------3|--------------------------------|

Chorus
G |--------------------------------|--------------------------------|
D |-2-----------2-----------2------|-----4-5-4-5---4-0--------------|
A |-------0-----------0-----------0|-------------------------0-5----|
E |--------------------------------|--------------------------------|

G |--------------------------------|--------------------------------|
D |-2-----------2-----------2------|-----4-5-4-5---4-0--------------|
A |-------0-----------0-----------0|-------------------------5-5----| Varies sometimes
E |--------------------------------|--------------------------------|

G |--------------------------------|------------------|
D |--------------------------------|------------------|
A |-3-----2-----0-----------3------|-----5------------|
E |-------------------------------3|------------------|

Order:
[00:04] Verse 2x
[00:35] Chorus
		
Scroll