The Smiths & Morrissey Bass Tabs

Glamerous Glue

(Morrissey/Whyte)
			

Verse
G |--------------------------------|--------------------------------|
D |--------------------------------|--------------------------------|
A |--------------------------------|-------------------------5------|
E |-0---0---0---0---0---0---3---5--|-0---0---0---0---0---0-------5--|

Chorus
G |--------------------------------|--------------------------------|
D |--------------------------------|--------------------------------|
A |-0---0---0---0---0---0---0------|-0---0---0---0---0---0---0-2----|
E |---------------------------3----|--------------------------------|

G |--------------------------------|--------------------------------|
D |--------------------------------|--------------------------------|
A |-3---3---3---3---3---2---0------|--------------------------------|
E |-----------------------------3--|-2---3---5---7---7-7-6-5-4-3-2--|

Break
G |-----------------------4--------|--------------------------------|
D |-------7---5-7-------------3-5--|-----------------7---5---4---2--|
A |-3---------------2--------------|-0---0---0---0------------------|
E |--------------------------------|--------------------------------|

G |-----------------------4--------|--------------------------------|
D |-------7---5^7-------------2^4--|--------------------------------|
A |-3---------------2--------------|-0---0---0---0------------------|
E |--------------------------------|-------------------7-6-5-4-3-2--|

Ending
G |--------------------------------||
D |--------------------------------||
A |-7---5---7---5---7---5---7---5--||
E |--------------------------------|| 2x

G |--------------------------------|
D |--------------------------------|
A |--------------------------------|
E |-0------------------------------|

Order:
[00:00] Verse 4x

Block
		
Scroll