Hairdresser On Fire

(Morrissey/Street)
			

Intro
G |--------------------------------|--------------------------------|
D |--------------------------------|--------------------------------|
A |--------------------------------|-3-------------5-\-1------------|
E |-1------------\5----------------|--------------------------------|

G |--------------------------------|--------------------------------|
D |--------------------------------|--------------------------------|
A |---------------3----------------|-5-----------------------1-0-3--|
E |-1------------------------------|--------------------------------|

Instrumental
G |--------------------------------|--------------------------------|
D |-3-3---3-3-3--------------------|--------------------------------|
A |-------------5-3----------------|-3-3---3-3-3---3-1---0---1---3--|
E |-----------------5-5---5-5-5-5-3|--------------------------------|

G |--------------------------------|--------------------------------|
D |-3-3---3-3-3-0-3---------1-1-3-1|--------------------------------|
A |-----------------3-3---3--------|-5-5---5-----3-5-5-5---5-5-5-3-0|
E |--------------------------------|---------1-3--------------------|

Verse
G |--------------------------------|--------------------------------|
D |--------------------------------|--------------------------------|
A |-----------0-3-5-----------3-5-3|-----------0-3-5-----------3-5-3|
E |-1-1---1---------1-1---1--------|-1-1---1---------1-1---1--------|

                                                                       2nd time end with this:
G |--------------------------------|--------------------------------|  --------------|
D |--------------------------------|--------------------------------|  --------------|
A |-5-5---5---5-3---------------3--|-----------0-3-5-----------3-5-3|  --------------|
E |-----------------5-5---5---5----|-1-1---1---------1-1---1--------|  -1---1---1-3-5|

Bridge
G |--------------------------------|--------------------------------|
D |--------------------------------|-------3-5-3----------3-5-3-----|
A |-1-1-1-3-3-3-5---3-----3---3-3--|/5-5---------5---5-5--------5---|
E |--------------------------------|--------------------------------|

G |--------------------------------|--------------------------------|
D |--------------------------------|--------------------------------|
A |-1-1-1-3-3-3-5---3-----3---3-3--|-------1-3-1--------------------|
E |--------------------------------|-3-3----------------------------|

Chorus
G |--------------------------------|--------------------------------|
D |--------------------------------|-----------------8---7---5---7--|
A |--------------------------------|--------------------------------|
E |-13--13--13--13-\5---5---5---5--|-8---8---8---8------------------|
                                                                     yOnly when a new verse comes in
G |--------------------------------|--------------------------------|-------------------------------|
D |-3-3---3-3-3-0-3---------1-1-3-1|--------------------------------|-------------------------------|
A |-----------------3-3---3--------|-5-5---5-5-5-0-5-5-5---5-5-5-7--|-8--------(Drum Roll)----------|
E |--------------------------------|--------------------------------|-------------------------------|

Order:
<I>[00:00] Strings</I>
[00:13] Intro
[00:27] Instrumental

[00:42] Verse
[01:10] Bridge
[01:24] Chorus 2x
Repeat Above Block