The Smiths & Morrissey Bass Tabs

He Knows I'd Love To See Him

(Morrissey/Street)
			

Intro
G /----------------------|
D /----------------------|
A /--(drum brushes)------|
E /-------------------4--|

Verse
G |--------------------------------|---------------------------\-4--|
D |--------------------------------|-------------4------------------|
A |-4-----------2--------------(2)-|-2---------------2--------------|
E |-----------------2--------------|--------------------------------|

G |--------------------------------|--------------------------------|
D |--------------------------------|---------------------------\-4--|
A |-2-----------2------------------|-4------------------------------|
E |-----------------0-----------4--|-----------------2--------------|

G |--------------------------------|-------------4------------------|
D |--------------------------------|-----------4-----2--------------|
A |-2---------------2--------------|---------------2----------------|
E |-----------------------2--------|-2---------------------------4--|

G |--------------------------------|-----------------------------2--|
D |--------------------------------|--------------------2------4----|
A |-4-----------2------------------|------------------4-------------|
E |-----------------2--------------|---------4-5--------------------|

G |--------------------------------|--------------------------------|
D |--------------------------------|--------------------------------|
A |-2------------------------------|--------------------------------|
E |---------4-5--------------------|

Order:
[00:01] Unfinished!
		
Scroll