I Know It's Gonna Happen Someday

(Morrissey/Nevin)
			

Intro
G |-------------------------|-------------------------|
D |-3---------3-2-----------|-0-------2-3-5\----------|
A |---------3---------------|---------------------0-2-|
E |-------------------------|-------------------3-----|

Verse
G |-------------------------|-------------------------|-----------------------0-|-1-----------------------|
D |---------------------0-1-|-2-------2-------------2-|-3-----------3-----3-3---|-------------5-----3-----|
A |-3-----------3-----3-----|-----------2---------3---|-----------3-------------|-------------------------|
E |-----------3-------------|-------------0-----------|-------------------------|-------------------------|

Chorus
G |-------------1---------1-|-2---------2-3---------3-|-------------------------|-------------------------|
D |---------------------2---|---------2-----------2---|-0-----------------------|---------------------0-2-|
A |-3-----------------------|-------------------------|------3------2-----------|-------------------------|
E |-------------------------|-------------------------|-------------------------|-5-----3-----1-----------|

Please wait... A
G |-------------------------|-------------0-0-0-0-0-0-|
D |-3---------3-2-----------|-0-------2-3-------------|
A |---------3---------------|-------------------------|
E |-------------------------|-------------------------|

Please wait... B
G |-------------------------|-------------0-----------|-------------------------|-------------------------|
D |-3------(3)--2---------2-|-0-------2-3-------------|-----------------------2-|-3-----------3-----------|
A |---------------------3---|---------------------0-2-|-3-----------3-------3---|-----------3-----------3-|
E |-------------------------|-------------------3-----|-----------3-------------|-------------------------|

Wait...don't loose faith
G |-------------------------|-------------------------|-------------------------|
D |---------------------0-2-|-3-------0-2-3-------2-3-|-------555---------5-3-2-|
A |-3-----------3-----3-----|-------------------------|-----5-----5-------------|
E |-----------3-------------|-------------------------|-333---------3-3-3-------|

Outro
G |-------------------------|-------------------------|
D |-------------------------|--------------1----------|
A |-3-----------3-----3-4-5-|-6---------3-------3-4-5-|
E |-----------3-------------|-------------------------|

Order:
<I>(Fade in)
[00:26] Verse
[00:43] Chorus</I>
[01:01] Intro
[01:09] Verse
[01:27] Chorus
[01:44] Please Wait... B
[02:01] Wait...Don't Lose Faith
[02:14] Verse
[02:32] Chorus
[02:49] Please Wait... A
[02:57] Outro until end