(I'm) The End Of The Family Line

(Morrissey/Langer)
			

Verse
G |--------------------------------|--------------------------------|
D |-0---------------0-----------0--|---------2-----5---------2-----5|
A |---------0---------------0------|-3---------------3--------------|
E |--------------------------------|--------------------------------|

G |--------------------------------|--------------------------------|
D |---------0---3-----------0---3--|-0---------------0--------------|
A |-1---------------1--------------|---------0-------------0(0-0^3)-|
E |--------------------------------|--------------------------------|

Chorus
G |--------------------------------|--------------------------------|
D |---------0---3-----------0------|--------------------------------|
A |-1---------------1--------------|---------3-------------1--------|
E |-----------------------------0--|-1---------------1--------------|

G |--------------------------------|---------------------------5----|
D |---------0---3-----------0------|------------------------\7---7--|
A |-1---------------1--------------|-3---------------3--------------|
E |--------------------------------|---------3----------------------|

Break
G |--------------------------------|--------------------------------|
D |-0---------------0--------------|-0---------------0--------------|
A |---------0---------------0------|---------0---------------0---3--|
E |--------------------------------|--------------------------------| 4x


Order:
[00:12] Verse 2x
[00:46] Chorus
Repeat This