Irish Blood, English Heart

(Morrissey/Whyte)
			

Verse A
G |--------------------------------|--------------------------------|
D |--------------------------------|-----------------3--------------|
A |-------------------------2---3--|--------------------------------|
E |-5------------------------------|-1------------------------------|

G |--------------------------------|--------------------------------|
D |--------------------------------|-3--------------/5-------3------|
A |-------------------------2---3--|--------------------------------|
E |-5------------------------------|--------------------------------|

G |--------------------------------|--------------------------------|
D |--------------------------------|--------------------------------|
A |--------------------------------|--------------------------------|
E |-5-------------------------5---5|-5-------------------------5---5|

G |--------------------------------|--------------------------------|
D |--------------------------------|--------------------------------|
A |--------------------------------|-C-C-C-C-C-C-C-C-\-(stop)-------| C=12
E |-5-------------------------5---5|--------------------------------|


Chorus
G |--------------------------------|--------------------------------|
D |-3-3-3-3-3-3-3-3---3---2-----3-2|-3-3-3-3-3-3-3-3---3---2-----3--|
A |-----------------2---2-----2----|-----------------2---2-----2---3|
E |--------------------------------|--------------------------------|

Chorus End
G |--------------------------------|
D |--------------------------------|
A |-0-0-0-0-2-2-2-2-3-3-3-3-5-5-5-5|
E |--------------------------------|

Verse B (Play very soft)
G |--------------------------------||   |--------------------------------|
D |-------7-7-7-----------7--(7)---||   |--------------------------------|
A |--------------------------------||   |-C-C-C-C-C-C-C-C-\-(stop)-------| C=12
E |-5-----------5---5-5------------||7x |--------------------------------|

Break
G |--------------------------------|
D |--------------------------------|
A |-8-8-8-8-8-8-8-8-\-(stop)-------|
E |--------------------------------|

Outro
G |--------------------------------|--------------------------------|
D |--------------------------------|-7-7-7-7-9-9-9-9-A-A-A-A-C-C-C-C| A=10
A |-0-0-0-0-3-3-3-3-5-5-5-5-8-8-8-8|--------------------------------| C=12
E |--------------------------------|--------------------------------|

G |--------------------------------|
D |--------------------------------|
A |-12\----------------------------|
E |--------------------------------|


Order:
[00:14] Intro
[01:51] Verse A
[00:40] Chorus | Chorus End | Chorus | Chorus End 2x
[01:05] Verse B
[01:33] Chorus | Chorus End 2x | Chorus | Chorus End 2x
[02:00] Break
[02:04] Chorus | Chorus End | Chorus | Chorus End 2x
[02:27] Outro
</pre>
</td></tr></table>

<p align="center">
<span class="copyright">- Tabbed by Micturion -