The Smiths & Morrissey Bass Tabs

Jack The Ripper

(Morrissey/Boorer)
			

Intro
G |--------------------------------|--------------------------------|
D |--------------------------------|--------------------------------|
A |(7)~~---------------------------|/3~~-------------0~~------------|
E |--------------------------------|--------------------------------|

G |--------------------------------|--------------------------------|
D |--------------------------------|--------------------------------|
A |--------------------------------|-3~~-------------0~~------------|
E |-0~~----------------------------|--------------------------------|

G |--------------------------------|--------------------------------|
D |--------------------------------|--------------------------------|
A |-7~~----------------------------|-3~~-------------0~~------------|
E |--------------------------------|--------------------------------|

Verse
G |--------------------------------|--------------------------------|
D |-------------------------2------|--------------------------------|
A |-------------------0-2----------|-3---3-------0---0-2---3--------|
E |-0---0---------0----------------|--------------------------------|

Chorus
G |--------------------------------|--------------------------------|
D |--------------------------------|-----------------7-5---4--------|
A |--------------------------------|-5-----------5-5-----------2-3--|
E |-3---------------3-5---7---5-7--|--------------------------------|

G |--------------------------------|--------------------------------|
D |--------------------------------|--------------------------------|
A |-3---------------3-2---3---2-3--|-5---------------5-5---5---3-2--|
E |--------------------------------|--------------------------------|

G |--------------------------------|--------------------------------|
D |--------------------------------|-----------------7-5---4--------|
A |--------------------------------|-5-----------5-5-----------2-3--|
E |-3---------------3-5---7---5-7--|--------------------------------|

G |--------------------------------|--------------------------------|
D |--------------------------------|--------------------------------|
A |-3---------------3-2---3---2-3--|-5-------5-------5-------5-3-2--|
E |--------------------------------|--------------------------------|

Break
G |--------------------------------|--------------------------------|
D |--------------------------------|--------------------------------|
A |--------------------------------|--------------------------------|
E |-0---0--------------------------|-0---0--------------------------|

Order:
[00:26] Intro
Block
		
Scroll