The Smiths & Morrissey Bass Tabs

Jack The Ripper (Live)

(Morrissey/Boorer)
			

Intro
G |--------------------------------|--------------------------------|
D |--------------------------------|-0~~----------------------------|
A |-9~~----------------------------|-----------------2~~------------|
E |--------------------------------|--------------------------------|

G |--------------------------------|--------------------------------|
D |--------------------------------|-0~~----------------------------|
A |--------------------------------|-----------------2~~------------|
E |-2~~----------------------------|--------------------------------|

G |--------------------------------|--------------------------------|
D |--------------------------------|-0~~----------------------------|
A |-9~~----------------------------|-----------------2~~------------|
E |--------------------------------|--------------------------------|

Verse
G |--------------------------------|--------------------------------|
D |-------------------------4------|--------------------------------|
A |-------------------2-4----------|-5---5-------2---2-4---5--------|
E |-2---2---------2----------------|--------------------------------|

Chorus
G |--------------------------------|-----------------4-2---1--------|
D |--------------------------------|-2-----------2-2-----------2----|
A |-0-------0-------0-2---4---2-4--|-----------------------------4--|
E |--------------------------------|--------------------------------|

G |--------------------------------|--------------------------------|
D |--------------------------------|-2---------------2-2---2--------|
A |-5---------------5-4---5---4-5--|---------------------------5-4--|
E |--------------------------------|--------------------------------|

G |--------------------------------|-----------------4-2---1--------|
D |--------------------------------|-2-----------2-2-----------2----|
A |-0-------0-------0-2---4---2-4--|-----------------------------4--|
E |--------------------------------|--------------------------------|

G |--------------------------------|--------------------------------|
D |--------------------------------|-2-------2-------2-------2------|
A |-5---------------5-4---5---4-5--|--------------------------------|
E |--------------------------------|-----------------------------0-1|

Break
G |--------------------------------|--------------------------------|
D |--------------------------------|--------------------------------|
A |--------------------------------|--------------------------------|
E |-2---2--------------------------|-2---2--------------------------|

Order:
[00:24] Intro
Block
		
Scroll