The Smiths & Morrissey Bass Tabs

Late Night Maudlin Street

(Morrissey/Street)
			

Start
G |--------------------------------|--------------------------------|
D |--------------------------------|--------------------------------|
A |--------------------------------|----------------------------14\-|
E |--------------------------------|--------------------------------|

Verse
G |--------------------------------|--------------------------------|
D |--------------------------------|--------------------------------|
A |-3----------14\--3----------14\-|------------14\-------------14\-|
E |--------------------------------|-3---------------3--------------|

Chorus-Like
G |--------------------------------|--------------------------------|
D |--------------------------------|--------------------------------|
A |-7---------------2--------------|-5------------------------------|
E |--------------------------------|-----------------0--------------|

G |--------------------------------|--------------------------------|
D |--------------------------------|--------------------------------|
A |-----------------2--------------|-5---------------7--------------|
E |-0------------------------------|--------------------------------|

G |--------------------------------|--------------------------------|
D |--------------------------------|--------------------------------|
A |------(Continue with verse)-----|--------------------------------|
E |-0------------------------------|--------------------------------|

Break
G |--------------------------------|--------------------------------|
D |--------------------------------|--------------------------------|
A |-2---------------7--------------|-2---------------7--------------|
E |--------------------------------|--------------------------------|

Order:
[01:32] Start

Block
		
Scroll