The Smiths & Morrissey Bass Tabs

Let The Right One Slip In

(Morrissey/Whyte/Day)
			

Verse A
G |--------------------------------|--------------------------------|
D |--------------------------------|--------------------------------|
A |-5-5-5-5-5-5-5-5-5-5-5-5-5-5-5-5|-----------------0-0-2-2-4-4-4-4|
E |--------------------------------|-3-3-3-3-3-3-3-3----------------|

Verse B
G |--------------------------------|--------------------------------|
D |--------------------------------|-5-5-5-5-5-5-5-5-7-7-5-5-4-4-2-2|
A |-5-5-5-5-5-5-5-5-5-5-5-5-5-5-5-5|--------------------------------|
E |--------------------------------|--------------------------------|

Chorus
G |-----------------4-4-----4-4----|--------------------------------||
D |-0-0-4-4-7-7-4-4-----5-5-----5-5|-5-5-7-7-4-4-2---5-5-4-4-2---4--||
A |--------------------------------|--------------------------------||
E |--------------------------------|--------------------------------|| 2x

Break
G |--------------------------------|--------------------------------|
D |--------------------------------|-----------------7-7-7---7-7-7--|
A |-7-7-7---7-7-7---0-0-0---0-0-0--|-7-7-7---7-7-7------------------|
E |--------------------------------|--------------------------------|

G |--------------------------------|--------------------------------|--------------------------------|
D |-4-4-4---4-4-4------------------|----------------(5-5-5-5)5-5-5--|-7-7-7-7-7-7-7-7----------------|
A |-----------------2-2-2---2-2-2--|-7------------------------------|-----------------0-0-2-2-4-4-4-4|
E |--------------------------------|--------------------------------|--------------------------------|

Outro
G |--------------------------------|--------------------------------|
D |-----------------4-4-4-4-4-4-4-4|-9-9-9-9-9-9-9-9-7-7-7-7-6-6-6-6|
A |-7-7-7-7-7-7-7-7----------------|--------------------------------|
E |--------------------------------|--------------------------------|

Order:
[00:19] Verse A,B
[00:31] Chorus
[00:44] Verse A,B
[00:56] Chorus
[01:09] Break
[01:24] Chorus
[01:37] Verse A,A
[01:49] Chorus (1st one a bit different)
[02:02] Outro
		
Scroll