The Smiths & Morrissey Bass Tabs

Lost

(Morrissey/Cobrin)
			

Intro
G |--------------------------------|--------------------------------||
D |-5---------5-----4---------5----|--------------------------------||
A |---------5---------------5---5--|-3-----------------3-----5------||
E |--------------------------------|-----------------3-----3--------|| 2x

Verse
G |--------------------------------|--------------------------------||
D |--------------------------------|--------------------------------||
A |--------------------------------|-3-----------------3-----5------||
E |-3---------------2-3---2-3------|-----------------3-----3--------|| 4x

Chorus
G |--------------------------------|--------------------------------|
D |-----------------7---(7)^5------|---------------2-2--------------|
A |-0-----------5-7------------7\--|-3-----------3-----------3------|
E |--------------------------------|--------------------------------|
                                                                       Ending at [01:33] instead of last bar
G |--------------------------------|--------------------------------| |--------------------------------|
D |-----------------7---(7)^5------|---------------2-2-------5------| |--------2-2---------------------|
A |-0-----------5-7------------7\--|-3-----------3------------------| |-3------------3-----------------|
E |--------------------------------|--------------------------------| |------------------0-------------|

Outro (So if I see you...)
G |--------------------------------|--------------------------------||
D |--------------------------------|--------------------------------||
A |-2-2--2-2--------2-2---2-5-----2|-3-3--(3-3)------------7--------|| 2x (End with the bars underneath)
E |--------------------------------|----------------/2^3------------||

G |--------------------------------|--------------------------------|
D |-----------5--------------------|-----------------------2/5------|
A |-5-5---5-------7---------0------|-3-----3-3----------2-----------|
E |-----------------7--------------|-----------------3--------------|

G |--------------------------------|--------------------------------|
D |-----------4-/-7-----9-----7----|-------------------------2\5----|
A |-5-5---5-5----------------------|-----------------------7--------|
E |--------------------------------|-8-----\-----3---3/8------------|

Outro (If I See you and I tell you...)
G |--------------------------------|--------------------------------||
D |--------------------------------|--------------------------------||
A |-2-2--2-2----------2---2-5-----2|-3-3----3-3------------7--------||
E |-----------------0--------------|----------------/2^3------------|| 2x (End with the bars underneath)

G |--------------------------------|--------------------------------|
D |--------------------------------|-----------------------2/5------|
A |-3-5---5-5-------0-2-----0-----0|-3-3----3-3------2^3------------|
E |--------------------------------|--------------------------------|

G |--------------------------------|--------------------------------|
D |-----------4-/-7-----9-----7----|--------------------------------|
A |-3-5---5-5----------------------|-3-3----3-3------------0-3------|
E |--------------------------------|-----------------3-3------------|

Outro (Instrumental)
G |--------------------------------|--------------------------------||
D |--------------------------------|--------------------------------||
A |-2-2--2-2----------2---2-5------|\3-3----3-3------------7--------||
E |-----------------0--------------|----------------/2^3------------|| 4x (End with the bars underneath)

G |--------------------------------|--------------------------------|
D |--------------------------------|--------------------------------|
A |-5-5---5-5-------0-2-----0------|-3-3----3-3------2-3---3---5----|
E |--------------------------------|--------------------------------|

G |--------------------------------|--------------------------------|
D |--------------------------------|--------------------------------|
A |-5-5---5-5-------0-2-----0------|-----------------------7-\10----|
E |--------------------------------|-8-8------8\3----3/8------------|

G |--------------------------------|--------------------------------|
D |-----------4-/-7-----9-----7----|--------------------------------|
A |-3-5---5-5----------------------|-3-3----3-3------3-2---0-3------|
E |--------------------------------|--------------------------------|

G |--------------------------------|--------------
D |--------------------------------|-----------
A |-5-5---5-5---------2-----0------|-3-3---- [Fade Out]
E |-----------------2------0-------|---------------

Order:
[00:00] Intro

[00:15] Verse
[00:43] Chorus
Repeat This

[01:40] Intro
[01:55] Outro (So if I see you...)
[02:23] Outro (If I see you and I tell you...)
[02:52] Outro (Instrumental)y
		
Scroll