Lucky Lisp

(Morrissey/Street)
			

Intro A
G |--------------------------------|
D |--------------------------------|
A |---------------------0---2---5--|
D |-0-----------0--(0)-------------| <- Don't play ghost note first block

Intro B
G |--------------------------------|
D |--------------------------------|
A |---------------------0---2---5--|
D |-5-----------5--(5)-------------| <- Don't play ghost note first block

Intro C
G |--------------------------------|
D |--------------------------------|
A |--------------------------------|
D |-5-----------5---5---5---5---5--|

Verse A
G |--------------------------------|
D |--------------------------------|
A |---------------------2---4---5--|
D |-5---5-------5---5--------------|

Verse B
G |--------------------------------|
D |--------------------------------|
A |---------------------0---2---5--|
D |-0---0-------0---0--------------|

Verse C
G |--------------------------------|
D |--------------------------------|
A |--------------------------------|
D |-0---0---0---0---0---0---0---0--|

Chorus
G |--------------------------------|--------------------------------|
D |--------------------------------|--------------------------------|
A |--------------------------------|--------------------------------|
D |-3---3---3---3---3---3---3---3--|-5---5---5---5---5---5---5---5--|

G |--------------------------------|--------------------------------|
D |--------------------------------|--------------------------------|
A |--------------------------------|-----------------------------5--|
D |-3---3---3---3---3---3---3---3--|-3---3---3---0---3---0---3------|

Outro
G |--------------------------------|--------------------------------|
D |--------------------------------|--------------------------------|
A |-3---3---3----------------------|-0---0--------------------------|
D |-----------------0---1---2---1--|-------------5-------5---7---5--|

Order:
[00:00] Intro A,A
[00:04] Intro A,A,B,A,A
[00:14] Intro A,A,B,A,C
[00:28] Verse A,A,B,B
[00:37] Verse A,A,B,C
[00:46] Chorus
Repeat Above Block