November Spawned A Monster

(Morrissey/Street)
			

Intro
G |---------------------9-^-10-----|--------------------------------|
D |--------------------------------|--------------------------------|
A |--------------------------------|-3---3\-------------------------|
E |-3---3\-------------------------|-------------------------1---2--|

Verse
G |--------------------------------|--------------------------------|
D |-1-------1-----1-----1-------1--|--------------------------------|
A |-------------------------1------|-5-------5-----5-----5----------|
E |--------------------------------|-------------------------1---2--|

G |---------------------9-^-10-----|--------------------------------|
D |--------------------------------|--------------------------------|
A |--------------------------------|--------------------------------|
E |-3---3\-------------------------|-3---3-----------------------3--|

G |--------------------------------|--------------------------------|
D |-1-------1-----1-----1-------1--|-------------------------3---4--|
A |-------------------------1------|-5-------5-----5-----5----------|
E |--------------------------------|--------------------------------|

Aah Part
G |--------------------------------|--------------------------------|
D |-5---5---5-----5---5-5-------5--|-3---3---3-----3---3-3-------3--|
A |-------------5-----------5------|-------------3-----------3------|
E |--------------------------------|--------------------------------|

G |--------------------------------|--------------------------------|
D |-1---1---1-----1---1-1-------1--|-0---0---0-----0---0-0-------0--|
A |-------------1-----------1------|-------------0-----------0------|
E |--------------------------------|--------------------------------|

Bridge
G |-------------------------2-^-3--|-------------------------2-^-3--|
D |-1-----------1------------------|-1-----------1------------------|
A |--------------------------------|--------------------------------|
E |--------------------------------|--------------------------------|

G |-------------------------2-^-3--|-------------------------3-^(2)-|
D |--------------------------------|--------------------------------|
A |-1-----------1------------------|-1-----------1------------------|
E |--------------------------------|--------------------------------|

Chorus
G |--------------------------------|--------------------------------|
D |-3-----------3-----------2------|-3-----------3------------------|
A |--------------------------------|-------------------------3---4--|
E |--------------------------------|--------------------------------|

G |--------------------------------|--------------------------------|
D |--------------------------------|--------------------------------|
A |-5-----------5-------1---3---5--|-5-------3-------1-------0------|
E |--------------------------------|--------------------------------|

G |--------------------------------|-------------- -----------------|
D |-1----------\5----^------8------|-1----------\5-----^-----8------|
A |--------------------------------|--------------------------------|
E |--------------------------------|--------------------------------|

G |--------------------------------|--------------------------------|
D |--------------------------------|--------------------------------|
A |-3----------\7----^------10-----|-3----------\7-----^-----10-----|
E |--------------------------------|--------------------------------|

G |--------------------------------|-------------- -----------------|
D |-1----------\5----^------8------|-0-----------0---0--0-----------|
A |--------------------------------|--------------------------------|
E |--------------------------------|-----------------------------3--|

G |--------------------------------|--------------------------------|
D |--------------------------------|--------------------------------|
A |-5-------3-------1-------0------|--------------------------------|
E |--------------------------------|-3------------------------------|

Break A
G |--------------------------------|--------------------------------|
D |--------------------------------|--------------------------------|
A |--------------------------------|--------------------------------|
E |--------------------------------|-1------------------------------|

G |--------------------------------|--------------------------------|
D |--------------------------------|--------------------------------|
A |-5------------------------------|-1------------------------------|
E |--------------------------------|------------------------------1-|

Break B
G |--------------------------------|--------------------------------|
D |--------------------------------|--------------------------------|
A |--------------------------------|--------------------------------|
E |-3------------------------------|-1------------------------------|

G |--------------------------------|--------------------------------|
D |--------------------------------|--------------------------------|
A |-5----------------------------5-|-3-(* or 1)---------------------|
E |--------------------------------|--------------------------------|

Break C
G |--------------------------------|--------------------------------|
D |--------------------------------|--------------------------------|
A |-0------------------------------|--------------------------------|
E |--------------------------------|-0------------------------------|

Break D
G |--------------------------------|--------------------------------|
D |--------------------------------|--------------------------------|
A |-1----------------------------1-|-0------------------------------|
E |--------------------------------|--------------------------------|

G |--------------------------------|--------------------------------|
D |--------------------------------|--------------------------------|
A |-1----------------------------1-|-3------------------------------|
E |--------------------------------|--------------------------------|

Order:
[00:06] It's just a G note here
Block