Ouija Board, Ouija Board

(Morrissey/Street)
			

Verse
G |--------------------------------|--------------------------------|
D |--------------------------------|--------------------------------|
A |-5-----------0---5-----------1--|-------------1------2----4---5--|
E |-------2-2-------------2-2------|-2-----4------------------------|

G |--------------------------------|--------------------------------|
D |--------------------------------|--------------------------------|
A |-2----------2----5-----0-----4--|-5---------------------2---4-5--|
E |-------2------------------------|-------0-----2---3--------------|

Verse
G |--------------------------------|--------------------------------|
D |--------------------------------|-----------------------0-----4--|
A |-----2---5----------0---2-------|-5-----------0---2--------------|
E |-2---------------2--------------|-------2-2----------------------|

G |--------------------------------|--------------------------------|
D |-5-----------2---4-----------4--|-2------------------------------|
A |-----2---5-----------2---5------|-----5---4---2---0--------------|
E |--------------------------------|---------------------3---2---0--|

Break
G |--------------------------------|--------------------------------|
D |--------------------------------|--------------------------------|
A |--------------------------------|--------------------------------|
E |-2------------------------------|-3------------------------------|

G |--------------------------------|--------------------------------|
D |--------------------------------|-------------------------2-4-5-7|
A |--------------------------------|-------------------2-4-5--------|
E |-2--------------2-2-2-2-2-2-2-2-|-3-3-3-3-3-3-3-3-5--------------|

Order:
[00:00] (Intro)