The Smiths & Morrissey Bass Tabs

Our Frank

(Morrissey/Nevin)
			

Intro/Outro
G |--------------------------------|--------------------------------|
D |--------------------------------|--------------------------------|
A |--------------------------------|--------------------------------|
E |-7---7---7---7---7---7---7---7--|-5---5---5---5---5---5---5---5--|

G |--------------------------------|--------------------------------|
D |--------------------------------|--------------------------------|
A |--------------------------------|--------------------------------|
E |-4---4---4---4---4---4---4---4--|-3---3---3---3---3---3---3---3--|

Intro End
G |--------------------------------|--------------------------------|
D |--------------------------------|--------------------------------|
A |-4---4---4---4---4---4---4---4--|-4---4---4---4---4---4---4---4--|
E |--------------------------------|--------------------------------|

Verse A
G |--------------------------------|--------------------------------|
D |--------------------------------|--------------------------------|
A |-------------4-------4----------|-------------2~~----------------|
E |-2---------------------------4--|-----4-------------------4---6--|

Verse B
G |--------------------------------|--------------------------------|
D |---------------------4----------|-----------------4---4----------|
A |-------------4---------------2--|---------2-^-4-----------5---4--|
E |-2------------------------------|--------------------------------|

Bridge
G |--------------------------------|--------------------------------|
D |--------------------------------|--------------------------------|
A |--------------------------------|--------------------------------|
E |-2---2---2---2---2---2---2---2--|-2---2---2---2---2---2---2---2--|

G |--------------------------------|--------------------------------|
D |--------------------------------|-4---4---4---4---4---4---4---4--|
A |--------------------------------|--------------------------------|
E |-2---2---2---2---2---2----2---2-|--------------------------------|

G |--------------------------------|--------------------------------|
D |--------------------------------|--------------------------------|
A |-2-----------2------------------|-5-----------5------------------|
E |--------------------------------|--------------------------------|

G |--------------------------------|--------------------------------|
D |--------------------------------|--------------------------------|
A |--------------------------------|-2---2---2-------4---4---4------|
E |-4-----------4------------------|--------------------------------|

Chorus
G |--------------------------------|--------------------------------||
D |--------------------------------|--------------------------------||
A |--------------------------------|-2---2---2---2---2---2---2---2--||
E |-2---2---2---2---2---2---2---2--|--------------------------------|| 3x

G |--------------------------------|--------------------------------|
D |--------------------------------|--------------------------------|
A |-2-^-4---4---4---2-^-4---4---4--|-2-^-4---4---4---2-^-4---4------|
E |--------------------------------|--------------------------------|

Order:
[00:00] Intro 2x | Intro End
Block
		
Scroll