The Smiths & Morrissey Bass Tabs

Piccadilly Palare

(Morrissey/Armstrong)
			

Intro
G |--------------------------------|
D |--------------------------------|
A |-0-----------2------------------|
E |----------------0---------------|

Main
G |--------------------------------|--------------------------------|
D |--------------------------------|---------2---2------------------|
A |---------0---0-----------5---5--|--------------------------------|
E |-2---2-----------2---2----------|-2---2-----------2---2---0---1--|

Verse
G |--------------------------------|--------------------------------|
D |-----4-------------------------1|-2---2---2-------3---3---3---3--|
A |---------------4^5~~------------|-----------2---2----------------|
E |-2------------------------------|-------------2------------------|
                                                                      2nd time ending
G |--------------------------------|--------------------------------| |--------------------------------|
D |--------------------------------|--------------------------------| |--------------------------------|
A |-2---2---2---2---0---0----------|---------0---0------------------| |---------0---0---------------2--|
E |-----------2---2---------0---1--|-2---2-----------2---2---0---1--| |-2---2-----------2---4---5------|

Chorus
G |--------------------------------|--------------------------------|--------------------------------|
D |-2-----2-----2------------------|--------------------------------|--------------------------------|
A |---------2-------5-------0---5--|-4-------2---0---5-------4---0--|---------0---0---------------2--|
E |--------------------------------|--------------------------------|-2---2-----------2---4---5------|

G |--------------------------------|--------------------------------|
D |-2-----------2------------------|--------------------------------|
A |---------2-------5-------0---5--|-4-------2---0---5-------4---0--|
E |--------------------------------|--------------------------------|

Break
G |--------------|
D |--------------|
A |-2~~----------|
E |--------------|

G |--------------------------------|--------------------------------|
D |-2---------------2--------------|--------------------------------|
A |---------2---5-----------2---5--|---------2---5---0-------2---5--|
E |--------------------------------|-3------------------------------|

G |--------------------------------|--------------------------------|
D |-2---------------2--------------|--------------------------------|
A |---------2---5-----------2---5--|---------2---5---0--------------|
E |--------------------------------|-3------------------------------|

G |--------------------------------|--------------------------------|
D |--------------------------------|---------2---2------------------|
A |---------0---0-----------5---5--|-----------------------------2--|
E |-2---2-----------2---2----------|-2---2-----------2---4---5------|

Order:
[00:02] Intro
[00:06] Main Line 2x
[00:20] Verse 2x
[00:50] Chorus 2x
[01:07] Main Line
[01:15] Verse 2x
[02:02] Break
[02:25] Chorus
[02:36] Last bar of Chorus until end
		
Scroll