Reader Meet Author

(Morrissey/Boorer)
			

Chorus
G |--------------------------------|--------------------------------||
D |--------------------------------|--------------------------------||
A |-1---1---1-3-1-0----------------|---------------3---3-3-3-3-3-3--||
E |-------1-------------------0-3-5|-3---3-3-5-3-5------------------|| 2x

G |--------------------------------|--------------------------------|--------------------------------|
D |--------------------------------|--------------------------------|--------------------------------|
A |--------------------------------|-5---5---5---5---5-5-5----------|--------------------------------|
E |-1-----1-1-1-1-1---0----3-------|-----------------------0---2----|-3---3---3---3-3---3-3-3-3---3--|

Verse
G |--------------------------------|--------------------------------||
D |--------------------------------|--------------------------------||
A |-3---3-3---------------3-4-5---5|-5---5--------------------------||
E |-------------0---3---3----------|-------0-3\5-----5---3-5--5-----|| 4x

Break
G |--------------------------------|--------------------------------||
D |--------------------------------|--------------------------------||
A |-------------6---6-6---6-8------|--------------------------------||
E |-5-----5------------------------|-6-----6-----1---1-1---1-1------|| 3x

G |--------------------------------|--------------------------------|
D |--------------------------------|--------------------------------|
A |-------------6---6-6---6-8------|--------------------------------|
E |-5-----5------------------------|-6-----6-----1---1-1-1---3---3--|



Order:
[00:00] Chorus
[00:23] Verse
[00:50] Chorus
[01:14] Verse
[01:41] Chorus
[02:04] Break
[02:31] Verse
[02:59] Chorus
[03:22] Break (only 1x)
</pre>
</td></tr></table>

<p align="center">
<span class="copyright">- Tabbed by Micturion -