Roy's Keen

(Morrissey/Whyte)
			

Intro
Gb |--------------------------------|--------------------------------|
Db |--------------------------------|--------------------------------|
Ab |-----4---0---2-------2---2------|-----4---0---2-------2---2------|
Eb |-2------------------------------|-2------------------------------|

Gb |--------------------------------|--------------------------------|
Db |--------------------------------|--------------------------------|
Ab |-5---4---2----------------------|-5---4---2---------------4------|
Eb |-------------0------------------|-------------0------------------|

Verse
Gb |--------------------------------|--------------------------------|
Db |--------------------------------|--------------------------------|
Ab |-------\-9-------7---7----------|-5---5---7---9---------------9--|
Eb |-2------------------------------|--------------------------------|

Gb |--------------------------------|--------------------------------|
Db |--------------------------------|--------------------------------|
Ab |--------------------------------|-5---5---5---4---------------9\-|
Eb |-7-------7-------7---7----------|--------------------------------|

Chorus
Gb |--------------------------------|--------------------------------|
Db |--------------------------------|--------------------------------|
Ab |---------2-------4---5----------|-2-------4-------5-------4---2--|
Eb |-2------------------------------|--------------------------------|

Gb |--------------------------------|--------------------------------|
Db |--------------------------------|--------------------------------|
Ab |-7------------------------------|--------------------------------|
Eb |---------4-------5---7----------|-5-----------4-----------2------|

Post Chorus
Gb |--------------------------------|--------------------------------|
Db |--------------------------------|--------------------------------|
Ab |---------0-------0---2----------|---------0-------0---2----------|
Eb |-2------------------------------|-2------------------------------|

Gb |--------------------------------|--------------------------------|
Db |--------------------------------|--------------------------------|
Ab |-5-------4-------0---7----------|-5-------4-------0---7----------|
Eb |--------------------------------|--------------------------------|

Break
Gb |--------------------------------|--------------------------------|
Db |--------------------------------|--------------------------------|
Ab |--------------------------------|--------------------------------|
Eb |-5---------0x5---5---------0x5--|(5)--------0x5---5---------0x5--|

Gb |--------------------------------|--------------------------------|
Db |--------------------------------|--------------------------------|
Ab |--------------------------------|-------------5-------4----------|
Eb |-7---7-------7-------------0x5--|-7---7--------------------------|

Gb |--------------------------------|--------------------------------|
Db |--------------------------------|--------------------------------|
Ab |--------------------------------|--------------------------------|
Eb |-5---------0x5---5---------0x5--|(5)--------0x5---5---------0x5--|

Gb |--------------------------------|--------------------------------|
Db |--------------------------------|--------------------------------|
Ab |--------------------------------|-5---5---5---5---4--------------|
Eb |-7---7-------7-------------0x5--|--------------------------------|

Order:
[00:09] Intro
[00:18] Verse 2x
[00:35] Chorus
[01:11] Verse 2x
[01:28] Chorus
[01:45] Post Chorus
[02:02] Break
[02:19] Post Chorus
[02:46] Chorus until end (Lala)