Seasick, Yet Still Dock

(Morrissey/Whyte)
			


Verse
G |--------------------------------|--------------------------------|
D |--------------------------------|--------------------------------|
A |-------------0---2---5----------|-2---0-------------------0---2--|
E |-3------------------------------|---------3----------------------|

G |--------------------------------|--------------------------------|
D |--------------------------------|--------------------------------|
A |-5-----------2---0---2----------|--------------------------------|
E |--------------------------------|---------2----------------------|

G |--------------------------------|--------------------------------|
D |--------------------------------|--------------------------------|
A |---------------------5---------7|---------2----------------------|
E |-5------------------------------|--------------------------------|

G |--------------------------------|--------------------------------|
D |--------------------------------|--------------------------------|
A |--------------------------------|--------------------------------|
E |-2-------------------5----------|---------3-----------5----------|

Outro
G |-4---------------4---3----------|-----3---2---------------4---2--|
D |-------------4------------------|-4------------------------------|
A |--------------------------------|--------------------------------|
E |--------------------------------|--------------------------------|

G |-1------------------------------|--------------------------------|
D |-------------2---4---5----------|-7---5--------------------------|
A |--------------------------------|---------5---------------4---5--|
E |--------------------------------|--------------------------------|

G |--------------------------------|--------------------------------|
D |-------------0---2---4----------|-4------------------------------|
A |-7------------------------------|---------2---------------4---5--|
E |--------------------------------|--------------------------------|

G |-------------4---2---1----------|--------------------------------|
D |-4------------------------------|-2---4---5---------------7---5--|
A |--------------------------------|--------------------------------|
E |--------------------------------|--------------------------------|

G |--------------------------------|--------------------------------|
D |--------------------------------|-0---2---4-----------4-------4--|
A |-5-----------4---5---7----------|-------------------------4------|
E |--------------------------------|--------------------------------|

G |--------------------------------|--------------------------------|
D |-5------------------------------|--------------------------------|
A |-----------------5--------------|-2---0-------------------0---2--|
E |--------------------------------|---------3----------------------|

G |--------------------------------|--------------------------------|
D |--------------------------------|--------------------------------|
A |-5-----------2---0--------------|--------------------------------|
E |---------------------3----------|--------------------------------|

Order:
[00:23] Verse
[00:49] Verse
[01:15] Verse
[01:41] Verse
[02:07] Verse
[02:32] Verse
[02:58] Verse
[03:24] Verse
[03:50] Verse
[03:59] Outro