Sister, I'm A Poet

(Morrissey/Street)
			

Intro A
G |--------------------------------|
D |--------------------------------|
A |-----------------6--------------|
E |-4~~---------------------4------|

Chorus
G |--------------------------------|--------------------------------|
D |-------5---3--------------------|-------5----3-------------------|
A |-------------5^3---5------------|--------------5^3---5-----------|
E |-1---------------6-------4---6--|-1----------------6------4----6-|

G |--------------------------------|--------------------------------|--------------------------------|
D |--------------------------------|--------------------------------|-------5----3-------------------|
A |--------------------------------|--------------------------------|--------------5^3---5-----------|
E |-4---------x-----4-----4-4---4--|-6--------6--------4-------4----|-1---------------6-------4---6--|

Verse
G |--------------------------------|--------------------------------|
D |--------------------------------|-------------------7^5-5--------|
A |-1-----1-----1-------1-^-3---3--|-5-----5-----5-----------8---5--|
E |--------------------------------|--------------------------------|

G |--------------------------------|--------------------------------|
D |--------------------------------|--------------------------------|
A |-1-----1-----1-------1-^-3---5--|-3-----3-----3-----1^3---5---3--|
E |--------------------------------|--------------------------------|

G |--------------------------------|--------------------------------|
D |--------------------------------|-------------------------5------|
A |-1-----1-----1------------------|-3-----3-----3-----3------------|
E |---------------------3---1---3--|--------------------------------|

G |--------------------------------|--------------------------------|
D |--------------------------------|-------------------------5------|
A |-1-----1-----1------------------|-3-----3-----3----(3)--------3--|
E |---------------------3---1---3--|--------------------------------|

Order:
[00:00] Intro
[00:03] Chorus (Skip last bar)