The Smiths & Morrissey Bass Tabs

Sister, I'm A Poet (Live)

(Morrissey/Street)
			

Chorus
G |--------------------------------|--------------------------------|
D |-----------------6---6---8---8--|-----------------6---6---8---8--|
A |-8-----8---8-8------------------|-8-----8---8-8------------------|
E |--------------------------------|--------------------------------|

G |--------------------------------|--------------------------------|
D |-6-----6---8-8---8---8---6---6--|--------------------------------|
A |--------------------------------|-8-----8---8-8---8---6---5---3--|
E |--------------------------------|--------------------------------|

Verse
G |--------------------------------|--------------------------------|
D |-------------5---8---5----------|--------------------------------|
A |-----5---8----------------------|-5---8---5-------5---5---3---3--|
E |-6-----------------------8---8--|-------------8------------------|

G |--------------------------------|--------------------------------|
D |-------------5---8---5----------|-------------7--10---7----------|
A |-----5---8---------------5---5--|-----7--10--------------10---7--|
E |-6------------------------------|-8------------------------------|

G |--------------------------------|--------------------------------|
D |-------------5---8---5----------|-------------7--10---7----------|
A |-----5---8---------------5------|-----7--10--------------10---7--|
E |-6---------------------------8--|-8------------------------------|

G |--------------------------------|--------------------------------|
D |-------------5---8---5----------|-------------7--10--10----------|
A |-----5---8---------------5------|-----7--10---------------8--10--|
E |-6---------------------------8--|-8------------------------------|

Order:
[00:04] Chorus
[00:17] Verse
		
Scroll