Spring-Heeled Jim

(Morrissey/Boorer)
			

Intro
G |--------------------------------|--------------------------------|
D |--------------------------------|--------------------------------|
A |12--12--12--12--12--12--12--12--|--------------------------------|
E |--------------------------------|-9---9---9---9---9---9---9---9--|

Verse
G |--------------------------------|--------------------------------|
D |-6---6-----6---4^6-4^6---4-6-7--|--------------------------------|
A |--------------------------------|-4---4-----4---2-4---4---2--4---|
E |--------------------------------|--------------------------------|

G |---------------------------6-4--|--------------------------------|
D |-------------------------------6|-4---4-----4---2-4---4---2--4---|
A |-7---7-----7---4-7---7----------|--------------------------------|
E |--------------------------------|--------------------------------|

G |--------------------------------|---------------------------6-4--|
D |-6---6-----6---4^6-4^6---4-6-7--|--------------------------------|
A |--------------------------------|-4---4-----4---2-4---4---------6|
E |--------------------------------|--------------------------------|

G |--------------------------------|--------------------------------|
D |--------------------------------|-4---4-----4---2-4---4---2--4---|
A |-7---7-----7---4-7---7---4--7---|--------------------------------|
E |--------------------------------|--------------------------------|

Break
G |--------------------------------|--------------------------------||
D |--------------------------------|--------------------------------||
A |-0~~----------------------------|-4~~----------------------------||
E |--------------------------------|--------------------------------|| 2x

Order:
[00:00] Intro 2x
[00:12] Intro 4x (Guitars come in)