The Smiths & Morrissey Bass Tabs

Such A Little Thing Makes Such A Big Difference

(Morrissey/Street)
			

Chorus A
G |-------------1-2-4--------------|--------------------------------|
D |-2-------2-4-----------4--------|--------------------------------|
A |-------2-----------------2-----2|-4-----2-4---------------0-0^202|
E |--------------------------------|-----------0-2-4-5-----0--------|

G |-------------1-2-4--------------|---------------|
D |-2-------2-4-----------4--------|---------------|
A |-------2-----------------2---2--|-4-------------|
E |--------------------------------|---------------|

Verse A
G |--------------------------------|--------------------------------|
D |---------------6----------------|---------------------------2----|
A |-------------6-----------------0|-2-----2-2-------4-------4------|
E |-4-----4-4-------4-----4-4-2-4--|-----------------------4-----0-2|

G |--------------------------------|---------------|
D |--------------------------------|---------------|
A |-------------6-----------------0|-2-----2-2-----|
E |-4-----4-4-------4-----4-4-2-4--|---------------|

Verse B
G |--------------------------------|--------------------------------|
D |---------------6---------6------|---------------------------2----|
A |-------------6-------------4----|-2-----2-2-----2-4-------4------|
E |-4-----4-4-------4-----4-----4--|-----------2-4---------4-----0-2|

Chorus B
G |--------------------------------|--------------------------------|
D |--------------------------------|--------------------------------|
A |-------------0-2---------2-----0|-4-----2-4-----2-0-----0-0-0^202|
E |-0---0-0-2-4-----------2--------|--------------------------------|

G |--------------------------------|--------------------------------|---------------|
D |--------------------------------|--------------------------------|---------------|
A |-------------0-2---------2-----0|-4-----2-4--------6-6-6-6-6-6-6-|6-6-6-6-6-6-6-6|
E |-0---0-0-2-4-----------2--------|---------------0----------------|---------------|

Faster Part
G |--------------------------------|-----------6---6----------------|
D |--------------------------------|---------------------------4-6--|
A |---------------0-2-------0-----2|-4---4---4---4---4---4---4-----4|
E |-0---0---0-2-4------------------|--------------------------------|

G |--------------------------------|-------6------------------------|---------------|
D |--------------------------------|---------4-6--------------------|---------------|
A |---------------0-2-------0---0-2|-4---4-------4------------------|---------------|
E |-0---0---0-2-4------------------|-----------------4-4-4-4-4-4-4-4|4-4-4-4-4-4-4-4|

Break
G |-------7-9---9---------7--------|-------7-9---9------------------||
D |-7-910-----9-----7-910--10-9-9--|-7-910-----9--------------------||
A |--------------------------------|-----------------2-2-2-2-2-2-2-2||
E |--------------------------------|---------------2----------------|| 2x

G |--------------------------------|
D |--------------------------------|
A |--------------------------------|
E |-4-4-4-4-4-4-4-4-4-4-4-4-4-4-4-4|

Verse C
G |--------------------------------|--------------------------------|
D |--------------------------------|--------------------------------|
A |-------------0-2---------2-----2|-4-----2-4-2-4-2-0-----0-0-0^202|
E |-0---0-0-2-4-----------2--------|--------------------------------|

G |--------------------------------|-------6-----------------6------|
D |--------------------------------|---------4-6-4-------------4-6-4|
A |-------------0-2---------2-----2|-4---4---------4---4---4--------|
E |-0---0-0-2-4-----------2--------|--------------------------------|

G |--------------------------------|--------------------------------|
D |--------------------------------|--------------------------------|
A |-------------0-2---------2-----2|-4-----2-4-----------------6----|
E |-0---0-0-2-4-----------2--------|---------------2-4------4------4|

Order:

[00:00] Chorus A
[00:15] Verse A
[00:31] Chorus A

[00:46] Verse B 2x (How I love...)
		
Scroll