Sunny

(Morrissey/Whyte)
			

Pre-Verse
G |--------------------------------|--------------------------------|
D |--------------------------------|--------------------------------|
A |-0---0---0---0---0---0---0---0--|-0---0---0---0---0-------0------|
E |--------------------------------|--------------------------------|

Verse
G |--------------------------------|--------------------------------|
D |-----------------2---0-------0--|-0-------0-------4---2---0---2--|
A |-------------------------2------|--------------------------------|
E |-3-------3----------------------|--------------------------------|

G |--------------------------------|--------------------------------|
D |---------0---------------0------|--------------------------------|
A |-2-----------2---0-----------0--|-------------------------2---0--|
E |--------------------------------|-3-------3---3---3---3----------|

G |--------------------------------|--------------------------------|
D |-----------------2---0-------0--|-0-------0-------4---2---0---2--|
A |-------------------------2------|--------------------------------|
E |-3-------3----------------------|--------------------------------|

Verse End Normal
G |--------------------------------|--------------------------------|
D |---------0---------------0------|--------------------------------|
A |-2-----------2---0-----------0--|--------------------------------|
E |--------------------------------|-3-------5---3---2-------3---2--|

G |--------------------------------|--------------------------------|
D |-2--------------\7---5---4------|--------------------------------|
A |-----------------------------7--|-0-------0---0---0---0---0---0--|
E |--------------------------------|--------------------------------|

Break
G |--------------------------------|--------------------------------|
D |--------------------------------|--------------------------------|
A |-5------------------------------|-4------------------------------|
E |--------------------------------|--------------------------------|

G |--------------------------------|--------------------------------|
D |-----------------7---5----------|--------------------------------|
A |-3-----------------------7------|-----------------0--------------|
E |-----------------------------7--|--------------------------------|

G |--------------------------------|--------------------------------|
D |--------------------------------|--------------------------------|
A |--------------------------------|-5------------------------------|
E |-3------------------------------|--------------------------------|

G |--------------------------------|--------------------------------|
D |--------------------------------|--------------------------------|
A |--------------------------------|--------------------------------|
E |-5------------------------------|-4------------------------------|

G |--------------------------------|--------------------------------|
D |--------------------------------|--------------------------------|
A |--------------------------------|-5------------------------------|
E |-3------------------------------|--------------------------------|

Verse End Speciale
G |--------------------------------|--------------------------------|
D |---------0---------------0------|--------------------------------|
A |-2-----------2---0-----------0--|-------------------------2---0--|
E |--------------------------------|-3-------3---3---3---3----------|

G |--------------------------------|--------------------------------||
D |---------0-------2---0----------|--------------------------------||
A |-2-----------2-----------2---0--|--------------------------------||
E |--------------------------------|-3-------3---3---3---3---3---3--|| 2x

Outro
G |--------------------------------|--------------------------------||
D |---------2-------2---1----------|-------------2-2-2---2---4---4--||
A |-4---4-------4-4---------4---2--|-0---0---4----------------------||
E |--------------------------------|--------------------------------|| 4x

Order:
[00:21] Pre-Verse
[00:25] Verse | Verse End Normal
[00:46] Break

[01:07] Pre-Verse
[01:11] Verse | Verse End Normal
[01:31] Break (Start at 3rd Bar!)