That's Entertainment

(Weller)
			

Verse A
G |--------------------------------|--------------------------------|
D |--------------------------------|--------------------------------|
A |--------------------------------|--------------------------(4)---|
E |-5---------------2--------------|-5---------------2--------------|

Chorus A
G |--------------------------------|--------------------------------|
D |--------------------------------|--------------------------------|
A |-2------------------------------|-2------------------------------|
E |--------------------------------|-----------------3--------------|

Chorus B
G |--------------------------------|--------------------------------|
D |--------------------------------|--------------------------------|
A |-2---------(4)---5--------------|-2-----------4---5---------4----|
E |--------------------------------|--------------------------------|


Order:
[00:20] Verse 3x (Bass is low in the mix)
[00:42] Chorus A
[00:51] Verse 2x
[01:06] Chorus B

[01:13] Verse 3x
[01:37] Chorus B
Repeat