The Smiths & Morrissey Bass Tabs

The Boy Racer

(Morrissey/Whyte)
			

Intro
G |--------------------------------|--------------------------------|
D |--------------------------------|--------------------------------|
A |--[Very muted guitar strings]---|-[tick]--[tick]-----------------|
E |--------------------------------|----------------3-------5-------|

Chorus
G |--------------------------------|--------------------------------|
D |--------------------------------|--------------------------------|
A |--------------------------------|--------------------------------|
E |-7-------7-------7---7---7---7--|-3-------3-------3---3---3---3--|

G |--------------------------------|--------------------------------|
D |--------------------------------|--------------------------------|
A |--------------------------------|--------------------------------|
E |-0-------0-------0---0---0---0--|-3-------3-------5-------5------|

G |--------------------------------|--------------------------------|
D |--------------------------------|--------------------------------|
A |--------------------------------|--------------------------------|
E |-7-------7-------7---7---7---7--|-3-------3-------3---3---3---3--|

G |--------------------------------|--------------------------------|
D |--------------------------------|--------------------------------|
A |--------------------------------|--------------------------------|
E |-0-------0-------0---0---0---0--|-3---3---3---3---4---4---4---4--|

Verse A
G |--------------------------------|--------------------------------|
D |--------------------------------|--------------------------------|
A |-4---4---4---4---4---4---4---4--|-0---0---0---0---0---0---0---0--|
E |--------------------------------|--------------------------------|

G |--------------------------------|--------------------------------|
D |--------------------------------|--------------------------------|
A |--------------------------------|-0---0---0---0---2---2---2---2--|
E |-2---2---2---2---2---2---2---2--|--------------------------------|

Verse End
G |--------------------------------|--------------------------------|
D |--------------------------------|--------------------------------|
A |---------7---7-----------7---7--|---------7---7---7---7---7---7--|
E |-0---0-----------0---0----------|-0---0--------------------------|

Bridge
G |--------------------------------|--------------------------------|
D |--------------------------------|--------------------------------|
A |--------------------------------|--------------------------------|
E |-5-------5-------5---5---5---5--|-4-------4-------4---4---4---4--|

G |--------------------------------|--------------------------------|
D |--------------------------------|--------------------------------|
A |--------------------------------|-5-------5-------5---0---5---2--|
E |-3-------3-------3---3---3---3--|--------------------------------|

G |--------------------------------|--------------------------------|
D |--------------------------------|--------------------------------|
A |--------------------------------|--------------------------------|
E |-5-------5-------5---5---5---5--|-4-------4-------4---4---4---4--|

G |--------------------------------|--------------------------------|
D |--------------------------------|--------------------------------|
A |--------------------------------|-5---5---5----------------------|
E |-3-------3-------3---3---3---3--|-----------------2-------2------|

Oh-No!
G |--------------------------------|--------------------------------|
D |--------------------------------|--------------------------------|
A |-4---4---4---4---4---4---4---4--|-0---0---0---0---0---0---0---0--|
E |--------------------------------|--------------------------------|

G |--------------------------------|--------------------------------|
D |--------------------------------|--------------------------------|
A |--------------------------------|-----------------0---0---0---0--|
E |-2---2---2---2---2---2---2---2--|-3---3---3---3------------------|

G |--------------------------------|--------------------------------|
D |--------------------------------|--------------------------------|
A |-0---0---0---0---0---0---0---0--|--------------------------------|
E |--------------------------------|-0---0---0---0---0---0---0---0--|

G |--------------------------------|--------------------------------|
D |--------------------------------|--------------------------------|
A |-2---2---2---2---2---2---2---2--|--------------------------------|
E |--------------------------------|-3---3---3---3---3---3---3---3--|

G |--------------------------------|--------------------------------|
D |--------------------------------|--------------------------------|
A |-0---0---0---0---0---0---0---0--|--------------------------------|
E |--------------------------------|-0---0---0---0---0---0---0---0--|

G |--------------------------------|--------------------------------|
D |--------------------------------|--------------------------------|
A |-2---2---2---2---2---2---2---2--|-0---0---0---0------------------|
E |--------------------------------|-----------------2---2---2---2--|

Ending
G |--------------------------------|--------------------------------|
D |--------------------------------|--------------------------------|
A |-5---5---5---5---5---5---5---5--|--------------------------------|
E |--------------------------------|-0---0---0---0---0---0---0---0--|

G |--------------------------------|--------------------------------|
D |--------------------------------|--------------------------------|
A |--------------------------------|-0---0---0---0---0---0---0---0--|
E |-2---2---2---2---2---2---2---2--|--------------------------------|


Order:
[00:03] Intro
Block
		
Scroll