The Edges Are No Longer Parallel

(Morrissey/Whyte)
			

Part A
F# |--------------------------------|--------------------------------|
C# |--------------------------------|--------------------------------|
G# |-2~~----------------------------|--------------------------------|
D# |--------------------------------|-3~~----------------------------|

F# |--------------------------------|--------------------------------|
C# |--------------------------------|--------------------------------|
G# |--------------------------------|--------------------------------|
D# |-4~~----------------------------|-3~~-------------------------3--|

F# |--------------------------------|--------------------------------|
C# |--------------------------------|--------------------------------|
G# |-2~~---------------------4------|--------------------------------|
D# |--------------------------------|-3~~----------------------------|

F# |--------------------------------|--------------------------------|
C# |--------------------------------|--------------------------------|
G# |-------------------------2------|--------------------------------|
D# |-4~~----------------------------|-3~~-------------3~~------------|

Bridge
F# |--------------------------------|--------------------------------|
C# |--------------------------------|--------------------------------|
G# |--------------------------------|\9~~-------------2~~------------|
D# |-4~~-------------2~~------------|--------------------------------|

F# |--------------------------------|--------------------------------|------------------4-------------|
C# |--------------------------------|-----------------2^4\5~~--------|------------------------5~~-----|
G# |--------------------------------|\9~~----------------------------|--------------------------------|
D# |-4~~-------------2~~------------|--------------------------------|--------------------------------|

Part B
F# |--------------------------------|--------------------------------|
C# |--------------------------------|-----------------5--------------|
G# |-2-----2-2-------2-----2-----2-4|-------------------------4---2--|
D# |---------------2----------------|-3-----3-------3----------------|

F# |--------------------\4----------|--------------------------------|
C# |---------------6-----------5~~--|----------------(5)-------------|
G# |--------------------------------|---(2)(5)---------(5)x--(5)-----|
D# |-4-----4-----4------------------|(3)-----------------------------|

Part C
F# |--------------------------------|--------------------------------|------------------|
C# |-------------6------------------|-----------4-----2-----4----5\--|-9^11-12--14\-----|
G# |--------6-----------------------|-------3------------------------|------------------|
D# |-4---------------2------2----2--|-2-4----------------------------|------------------|

Part D
F# |--------------------------------|--------------------------------|
C# |--------------------------------|--------------------------------|
G# |-2------2---2----2---2---2-4-2--|-----------------2-------4---2--|
D# |-----(2)--2---------------------|-3~~----------------------------|

F# |--------------------------------|----4---6---7-------------------|
C# |-------------------6--8--10-----|----------------(5)-------------|
G# |--------------------------------|--------------------------------|
D# |-4~~-------------4--------------|-3------------------------------|

F# |--------------------------------|--------------------------------|
C# |--------------------------------|--------------------------------|
G# |-2~~-----2---2-2--2----2----2-2-|-----------------2-4-2----------|
D# |--------------------------------|-3------3---3-3--------3--(3-3)-|

F# |--------------------------------|--------------------------------|
C# |--------------------------------|--------------------------------|
G# |--------------------------------|-------(4)--5-------------------|
D# |-4~~-------0-0-2-4~~------------|-3~~-------------3----(3)-(3)(3)| ?

Boom
F# |--------------------------------|--------------------------------|
C# |--------------------------------|--------------------------------|
G# |-2~~----------------------------|--------------------------------|
D# |--------------------------------|--------------------4----3------|

Encore A
F# |--------------------------------|--------------------------------|
C# |--------------------------------|--------------------------------|
G# |-2-----2-----2---------2-----2--|-------2-----2\-----------------|
D# |---2-4-----2---2-0-2-3-----2---2|-0-2-3-----2-----4--4----3------|

Encore B
F# |--------------------------------|--------------------------------|
C# |--------------------------------|--------------------------------| <- Strum real quick and slide down your neck
G# |-2----\---14-----2---\---14-----|-2---\---14------11------10-----|     and make a lot of noise!
D# |--------------------------------|--------------------------------|     (Example at the end of the song)

Order:
[00:08] Intro
[00:45] Bridge
[01:06] Part B 2x
[01:42] Part C (Oh...Oh...)
[01:53] Part D (Oh...Oh...)
[02:30] Bridge (End with A#)
[02:50] [Acoustic Guitar Only]
[02:59] Boom
[03:08] Encore A 4x (My only mistake is I'm hoping...)
[03:44] Encore B until end (My...only mistake is I Keep hoping...)