The Smiths & Morrissey Bass Tabs

The Last Of The Famous International Playboys

(Morrissey/Street)
			

Intro
G |--------------------------------|--------------------------------|
D |--------------------------------|--------------------------------|
A |--------------------------------|--------------------------------|
E |--------------------------------|-------------------------------2|

G |--------------------------------|--------------------------------|
D |--------------------------------|\7---7---5^7-7-5----------------|
A |-------------0-2-3---3---3--3---|-----------------3---3-----3-5-3|
E |-3---3---3-------------3--------|--------------------------------|

Verse
G |--------------------------------|--------------------------------|
D |-------------2------------------|-------------2------------------|
A |-5-5-0-3---3---3-5-5-0-3-------3|-5-5-0-3---3---3-5-5-0-3-------3|
E |---------------------------3-5--|---------------------------3-5--|

G |--------------------------------|--------------------------------|
D |-------------2------------------|-------------2------------------|
A |-5-5-0-3---3---3-5-5-0-3-------3|-5-5-0-3---3---3-5-5-0-3---2-0--|
E |---------------------------3-5--|-------------------------------3|

Chorus
G |--------------------------------|-----------------
D |-------------------------------0|\7-7-7---7-7-7\0-
A |-------------0-2-3-------3---3--|-----------------
E |-3-3---3-3-3-----------3--------|-----------------

Chorus Endings A,B,C,D
  ---------------|  ---------------|  ---------------|  ---------------|
  ---------------|  ---------------|  ---------------|  ---------------|
  -3-3----3-2-0--|  -3---3--3-0---0|  -3-3----3-5-3-5|  -3-3-----3--3--|
  --------------3|  ------------3--|  ---------------|  ---------------|

Chorus Endings E,F
  ---------------|  ---------------|
  ---------------|  ---------------|
  -3-3----3-2-0-5|- -3-3----3-5-3--|
  ---------------|  --------------3|

Order:
[00:00] (No Bass)
[00:18] Intro
[00:36] Verse
[00:55] Chorus A,B
[01:13] Verse
[01:32] Chorus C,B
[01:50] Verse
[02:09] Chorus A,D (I never wanted to kill...)
		
Scroll