The Smiths & Morrissey Bass Tabs

The Lazy Sunbathers

(Morrissey/Whyte)
			

Intro/Chorus A
G |--------------------------------|------------------------(4)-----|
D |-2---------2-2-3-4--------------|--------------------------------|
A |-----------------------------4-2|-0------------(4)2--------------|
E |----------------(2)-------------|--------------------------------|

Verse
G |--------------------------------|--------------------------------|
D |--------------------------------|--------------------------------|
A |-4-----------4-5-6--------------|-0------------------------------|
E |-------------------------4------|-----------------4--------------|

G |--------------------------------|--------------------------------|
D |--------------------------------|-----------------6-------4------|
A |-4-----------4-5-6--------------|-0------------------------------|
E |-------------------------4------|---------4----------------------|

Post-Chorus
G |--------------------------------|--------------------------------|
D |--------------------------------|--------------------------------|
A |-4-----------6-7-0--------------|-4-----------6-7-0--------------|
E |--------------------------------|--------------------------------|

G |--------------------------------|--------------------------------|
D |--------------------------------|-2---------------2--------------|
A |-4-----------6-7-0-------2------|---------------2----------------|
E |--------------------------------|--------------------------------|

Chorus B
G |-----------------------------6-4|------------------------(4)-----|
D |-2-----------4-6-4--------------|--------------------------------|
A |--------------------------------|-0---------------2--------------|
E |--------------------------------|--------------------------------|

G |--------------------------------|------------------------(4)-----||
D |-2-----------4-6-4--------------|--------------------------------||
A |-----------------------------4-2|-0-------------4-2--------------||
E |--------------------------------|--------------------------------|| 3x

Outro
G |--------------------------------|--------------------------------|
D |--------------------------------|-----------------7-------4------|
A |-4-----------6-7----------------|-4-----------6-7----------------|
E |-----------------5-------5------|--------------------------------|

Order:

[00:00] Intro 2x

[00:14] Verse
[00:28] Chorus 2x
[00:42] Post-Chorus
Repeat
		
Scroll