The Smiths & Morrissey Bass Tabs

The Loop (Live)

(Morrissey/Nevin)
			

Verse A
G |--------------------------------|--------------------------------|
D |-------------3---5---3-------3--|-------------3---5---3-------3--|
A |-----3---5---------------5------|-----3---5---------------5------|
E |-3------------------------------|-3------------------------------|

G |--------------------------------|--------------------------------|
D |-------------3---5---3-------3--|-5---5---3---3---2---2---0---0--|
A |-----3---5---------------5------|--------------------------------|
E |-3------------------------------|--------------------------------|

Verse B

G |--------------------------------|
D |-----1---3---4---5---3---1---0--|
A |-3------------------------------|
E |--------------------------------|

G |--------------------------------|
D |-------------3---5---3-------3--|
A |-----3---5---------------5------|
E |-3------------------------------|

G |--------------------------------|
D |--------------------------------|
A |-6---------------3--------------|
E |---------6---------------3------|

Order:
[00:09] Verse A
[00:18] Verse B

[00:22] Verse B,A
[00:40] Bridge <span tab="TABLYR">(A small baby girl...)
		
Scroll