The Smiths & Morrissey Bass Tabs

The Teachers Are Afraid Of The Pupils

(Morrissey/Boorer)
			

Intro
G |--------------------------(12)--|--------------------------------|
D |-----------------------(10)-----|--------------------------------| (slow tempo)
A |-1~~-------------4~~------------|-3~~-------------2~~------------|  
E |---------------1---------------1|---------------1---------------1|

Verse (Seems like a Cello but tabbed it anyways)
G |--------------------------------|--------------------------------|
D |--------------------------------|--------------------------------|
A |--------------------------------|-0---------------6------(2)-----|
E |-6~~-----3-------2--------------|---------3----------------------|

Main A
G |--------------------------------|--------------------------------|
D |--------------------------------|--------------------------------|
A |--------------------------------|--------------------------------|
E |-6---6---6-----3---3-3---3------|-2---2---2-----2---2-2---2------|

G |--------------------------------|--------------------------------|
D |--------------------------------|--------------------------------|
A |-0---0---0----------------------|\6---6---6---6-2---2-2---2-2---2|
E |---------------3---3-3---3------|--------------------------------|

Main B
G |--------------------------------|--------------------------------|
D |--------------------------------|--------------------------------|
A |--------------------------------|-----------7-9---9-9-9-9-9-7----|
E |-6---6---6-----3---3-3---3------|-2---2-\-9-------------------9--|

G |--------------------------------|--------------------------------|
D |--------------------------------|--------------------------------|
A |-0---0---0-----------3-5--------|\6---6---6---6-2---2-2---2-2---2|
E |---------------3---3------------|--------------------------------|

Softer Part - A
G |--------------------------------|--------------------------------|
D |--------------------------------|--------------------------------|
A |--------------------------------|-4---4---4-----4---4-4---4------|
E |-6---6---6-----6---6-6---6------|--------------------------------|

G |--------------------------------|--------------------------------|
D |--------------------------------|--------------------------------|
A |-3---3---3-----3---3-3---3------|-2---2---2-----2---2-2---2------|
E |--------------------------------|--------------------------------|

Softer Part - B
G |--------------------------------|--------------------------------|
D |--------------------------------|-------------------------6\-----|
A |-------------------------8------|-4---4---4---------4\7----------|
E |-6---6---6-----6---6-6----------|---------------4----------------|

G |--------------------------------|--------------------------------|
D |---------------5----------------|--------------------------------|
A |-3---3---3-------------0-3------|-2---2---2-----2---0---2-0-2----|
E |-------------------3-3----------|-----------------2---2----------|

Main B
G |--------------------------------|--------------------------------|
D |--------------------------------|--------------------------------|
A |--------------------------------|-----------7-9---9-9-9-9-9-7----|
E |-6---6---6-----3---3-3---3------|-2---2-\-9-------------------9--|

G |--------------------------------|--------------------------------|
D |---------------------5----------|--------------------------------|
A |-0---0---0-------------5--------|\6---6---6---6-2---2-2---2-2---2|
E |---------------3---3------------|--------------------------------|

Interlude
G |--------------------------------|--------------------------------|
D |--------------------------------|--------------------------------|
A |--------------------------------|--------------------------------|
E |-6-6---------------------------2|\9-9---------------------------2|

G |--------------------------------|--------------------------------|
D |--------------------------------|--------------------------------|
A |--------------------------------|--------------------------------|
E |-8-8---------------------------2|\7-7---------------------------2|

G |--------------------------------|--------------------------------|
D |--------------------------------|--------------------------------|
A |--------------------------------|--------------------------------|
E |-6-6---------------------------2|\9-9---------------------------2|

G |--------------------------------|--------------------------------|
D |--------------------------------|--------------------------------|
A |--------------------------------|--------------------------------|
E |-8-8---------------------------2|\7-7-------2-\-7-------2-\-7----|



Weird Part (with some Echo/Flanger effect)
G |--------------------------------|--------------------------------|
D |--------------------------------|-6--------------10--9-----------|
A |-------------------8---8-8---8--|-----------------------10-------|
E |-6------------------------------|--------------------------------|

G |--------------------------------|--------------------------------|
D |--------------------------------|------4-\-7---------9-----------|
A |-7-\-9-\10---------/-----3---\--|-2------------------------------|
E |--------------------------------|--------------------------------|


Main D
G |--------------------------------|--------------------------------|
D |--------------------------------|\6---6---6-6-6-6-6-6-6-6-6-6-6-6|
A |-------------------------8---8--|
E |-6---6---6-----6---6-6----------|--------------------------------|

G |--------------------------------|--------------------------------|
D |-5---5---5-----5-5---5-5-5-5-5-5|-4---4---4---3------------------|
A |--------------------------------|-----------------7\6\5\4\3\2\1--|
E |--------------------------------|--------------------------------|



Order:
[00:02] Intro 8x

[01:18] Verse + Intro's
Keep repeating
		
Scroll