Tomorrow

(Morrissey/Whyte)
			

Intro
G |--------------------------------|--------------------------------|
D |--------------------------------|--------------------------------|
A |-7---------------7--------------|-7---------------7---7---6---5--|
E |--------------------------------|--------------------------------|

G |--------------------------------|--------------------------------|
D |--------------------------------|--------------------------------|
A |-5------------------------------|-4------------------------------|
E |-----------------5--------------|---------------------5---6---7--|

G |--------------------------------|
D |--------------------------------|
A |--------------------------------|
E |-7---7---7---7---7---7---7---7--|

Part A
G |--------------------------------|--------------------------------|
D |-9---9-----------7---7----------|--------------------------------|
A |---------9---9-----------9---9--|-5---5---9---9---7---7---9---9--|
E |--------------------------------|--------------------------------|

Part B
G |--------------------------------|--------------------------------|
D |--------------------------------|--------------------------------|
A |---------0---0---2---2---4---4--|-0---0---2---2---4---4---7---7--|
E |-3---3--------------------------|--------------------------------|

G |--------------------------------|--------------------------------|
D |--------------------------------|-2---2---4---4---5---5---7---7--|
A |-5---5---4---4---2---2---5---5--|--------------------------------|
E |--------------------------------|--------------------------------|

Part C
G |--------------------------------|--------------------------------|
D |--------------------------------|--------------------------------|
A |(0)-5-^7------------------------|-5---------------4--------------|
E |---------7--0-------------------|--------------------------------|

G |--------------------------------|--------------------------------|
D |--------------------------------|--------------------------------|
A |----5--7------------------------|-5---------------4--------------|
E |--------------------------------|--------------------------------|

Break
G |--------------------------------|--------------------------------|
D |--------------------------------|--------------------------------|
A |---------9---------------7------|-----5-5-5---5---7---5---4------|
E |-7-----------7---5--------------|--------------------------------|

Outro
G |--------------------------------|--------------------------------|
D |-6-------4----------------------|---------4-----------9---7---6--|
A |-------------4~~----------------|-5---5-------5---7--------------|
E |--------------------------------|--------------------------------|

Order:
[00:00] Intro
[00:14] Part A 2x

[00:20] Part A 4x
[00:34] Part B (All I ask of you...)