Used To Be A Sweet Boy

(Morrissey/Whyte)
			

Intro
G |--------------------------------|--------------------------------|
D |--------------------------------|--------------------------------|
A |-----------------0-------0------|-----------------2-------2------|
E |-0-------0----------------------|-0-------0----------------------|

G |--------------------------------|--------------------------------|
D |--------------------------------|--------------------------------|
A |-----------------0-------0------|---------2----------------------|
E |-0-------0----------------------|-0---------------0-------0------|

Verse A
G |--------------\5~~--------------|--------------------------------|
D |-------------7------------------|--------------------------------|
A |-0-------5-7--------------------|-----------------2--------------|
E |--------------------------------|-4------------------------------|

G |--------------------------------|--------------------------------|
D |-2------------------------------|--------------------------------|
A |-----------------0--------------|---------2----------------------|
E |-----------4-2-0----------------|-0---------------0--------------|

Verse B
G |--------------------------------|--------------------------------|
D |-----------6-4-2----------------|-2---------6-4-2-----------2----|
A |-----------------0---------4-2-0|-----------------2-----------2-2|
E |-0------------------------------|--------------------------------|

G |--------------------------------|--------------------------------|
D |-2---------6-4-2----------------|---------------------------2-4-2|
A |-----------------0--------------|---------2----------------------|
E |--------------------------------|-0---------------0--------------|


Verse C
G |--------------\5~~--------------|---------------------------4----|
D |-------------7-------------?-6-4|-------------------------4-----4|
A |-0-------5-7--------------------|-2-------2-------2--------------|
E |--------------------------------|--------------------------------|

G |--------------------------------|--------------------------------|
D |-2---------6-4-2-------------2--|-2---------------2--------------|
A |-----------------0---------2---2|---------2---------------2------|
E |--------------------------------|--------------------------------|

G |--------------------------------|
D |-2---------------2--------------|
A |---------2----------------------|
E |--------------------------------|

Instrumental
G |--------------------------------|--------------------------------|
D |--------------------------------|--------------------------------|
A |-0-------0-------4-------4------|-0-------0-------4-------3------|
E |--------------------------------|--------------------------------|

G |--------------------------------|--------------------------------|
D |--------------------------------|-----------------3--------------|
A |-0-------0-------4-------4------|-0-------0---------------2------|
E |--------------------------------|--------------------------------|

G |--------------------------------|--------------------------------|
D |-----------6-4-2----------------|-2---------6-4-2-----------2-4-1|
A |-----------------0---------4-2-0|-----------------2--------------|
E |-0------------------------------|--------------------------------|

G |--------------------------------|--------------------------------|
D |-2---------6-4-2-------------2--|-2---------------2--------------|
A |-----------------0---------2---2|---------2---------------2------|
E |--------------------------------|--------------------------------|

G |--------------------------------|--------------------------------|
D |-2---------------2-------4------|-2------------------------------|
A |---------2----------------------|--------------------------------|
E |--------------------------------|--------------------------------|


Order:

[00:00] Intro
[00:27] Verse A
[00:50] Verse B
[01:14] Verse C

[01:44] Instrumental