The Smiths & Morrissey Bass Tabs

Whatever Happens, I Love You

(Morrissey/Whyte)
			

Intro
G |--------------------------------|--------------------------------|
D |--------------------------------|--------------------------------|
A |-9\-----------------------------|-5-------5---5-5---5-5---7------|
E |---------2-------4-------5------|--------------------------------|

Verse
G |--------------------------------|--------------------------------|
D |--------------------------------|-0-----------4-----------2---0--|
A |-----------------------------2--|--------------------------------|
E |-3------------------------------|--------------------------------|

G |--------------------------------|--------------------------------|
D |---------------4----------------|--------------------------------|
A |-4---------------------------0--|-2---------------------------4\-|
E |--------------------------------|--------------------------------|

G |--------------------------------|--------------------------------|
D |--------------------------------|---------5--\8-----------7------|
A |--------------------------------|-----2--------------------------|
E |-3------------------------------|-3------------------------------|

G |--------------------------------|--------------------------------|
D |------------------------0^2--0--|-0------------------------------|
A |-5------------------0^2---------|-------------7------------------|
E |--------------------------------|---------------------0----------|

Bridge
G |--------------------------------|--------------------------------|
D |--------------------------------|--------------------------------|
A |-----------------------------3--|-5-------5-------7-------9------|
E |-3---3---5---6-----------5------|--------------------------------|

Instrumental Middle
G |--------------------------------|--------------------------------|
D |--------------------------------|--------------------------------|
A |---------7---------------5---7--|-8---8---8---8-8----8-8--8------|
E |-5---5-5-----5---7-7---7--------|--------------------------------|

G |--------------------------------|--------------------------------|
D |--------------------------------|--------------------------------|
A |---------7---------------5---7--|-8---8---8---8-8----8-10-8------|
E |-5---5-5-----5---7-7---7--------|--------------------------------|

G |--------------------------------|--------------------------------|
D |--------------------------------|--------------------------------|
A |---------7---------------5---7--|-8---8---8---8-8----8-8--8------|
E |-5---5-5-----5---7-7---7--------|--------------------------------|

G |--------------------------------|-----2--------------------------|
D |--------------------------------|-3-------3---2------------------|
A |---------1---3---------1---3----|--------------------------------|
E |-1-1-1-----------1-1-1----------|------------------3------0------|

Instrumental End
G |--------------------------------|--------------------------------|
D |--------------------------------|--------------------------------|
A |---------7---------------5---7--|-8---8---8---8-8----8-8--8------|
E |-5---5-5-----5---7-7---7--------|--------------------------------|

G |--------------------------------|--------------------------------|
D |--------------------------------|--------------------------------|
A |---------7---------------5---7--|-8---8---8\--5-5----5-5--7---8--|
E |-5---5-5-----5---7-7---7--------|--------------------------------|

G |--------------------------------|--------------------------------|
D |--------------------------------|--------------------------------|
A |---------7---------------5---7--|-8---8---8---8-8----8-8--8------|
E |-5---5-5-----5---7-7---7--------|--------------------------------|

G |--------------------------------|--------------------------------|
D |--------------------------------|--------------------------------|
A |---------7---------------5---7--|-8-------8-------5-------7------|
E |-5---5-5-----5---7-7---7--------|--------------------------------|

G |--------------------------------|--------------------------------|
D |--------------------------------|--------------------------------|
A |--------------------------------|--------------------------------|
E |-2------------------------------|--------------------------------|

Order:
[00:00] Intro 2x

Block
		
Scroll