Why Don't You Find Out For Yourself

(Morrissey/Whyte)
			

Intro
G |--------------------------------|--------------------------------|
D |--------------------------------|--------------------------------|
A |-6---------------2--------------|--------------------------------|
E |--------------------------------|-4------------------------------|

G |--------------------------------|--------------------------------|
D |--------------------------------|--------------------------------|
A |-6---------------2--------------|-----------------2--------------|
E |--------------------------------|-4------------------------------|

Chorus
G |--------------------------------|--------------------------------|
D |--------------------------------|--------------------------------|
A |--------------------------------|-4------------------------------|
E |-2------------------------------|--------------------------------|

G |--------------------------------|--------------------------------|
D |--------------------------------|--------------------------------|
A |--------------------------------|-2------------------------------|
E |-4------------------------------|--------------------------------|

Verse
G |--------------------------------|--------------------------------|
D |--------------------------------|--------------------------------|
A |-----------------6--------------|-2------------------------------|
E |-6------------------------------|-----------------2--------------|

G |--------------------------------|--------------------------------|
D |--------------------------------|--------------------------------|
A |-----------------6--------------|-2---------------4--------------|
E |-6------------------------------|--------------------------------|

Break
G |--------------------------------|--------------------------------|
D |--------------------------------|--------------------------------|
A |--------------------------------|--------------------------------|
E |-2---------------2--------------|-4---------------4--------------|

G |--------------------------------|--------------------------------|
D |--------------------------------|--------------------------------|
A |-2---------------2--------------|-4---------------4--------------|
E |--------------------------------|--------------------------------|

Order:
[00:00] Intro
[00:14] Chorus
Block