The Smiths & Morrissey Bass Tabs

Will Never Marry

(Morrissey/Street)
			

Intro
G |---5-----5---------3-----3------|---2-----2---------3-----3------|---2-----2---------2-----2------|
D |-3-----3-----3---3-----3-----3--|-3-----3-----3---1-----1-----1--|-0-----0-----0---0-----0-----0--|
A |--------------------------------|--------------------------------|--------------------------------|
E |--------------------------------|--------------------------------|--------------------------------|

Instrumental
G |--------------------------------|--------------------------------|
D |-3---3---3-3-----3---3---3---5--|-------------------5-------5----|
A |--------------------------------|-3---3---3-3-----3-------3------|
E |--------------------------------|--------------------------------|

G |--------------------------------|--------------------------------|
D |-1---1---1-1-----1-1---1-4------|-------------------------------3|
A |--------------------------------|-1---1---1-1-----1---1-1-1-3-5--|
E |--------------------------------|--------------------------------|

G |-------------------5-------5----|--------------------------------|
D |-3---3---3-3-----3-------3------|-------------------5-------5----|
A |--------------------------------|-3---3---3-3-----3-------3------|
E |--------------------------------|--------------------------------|

G |--------------------------------|--------------------------------|
D |-1---1---1-1-----1-1---1-4------|--------------------------------|
A |--------------------------------|-1---1---1-1-----1---1---3------|
E |--------------------------------|--------------------------------|

Order:
[00:00] Intro 2x
[00:23] Instrumental
[00:54] Intro 4x
[01:40] Instrumental
		
Scroll