Yes, I Am Blind

(Morrissey/Rourke)
			

Main Riff
G |--------------------------------|--------------------------------|
D |---------------------4-----6----|--------------------------------|
A |-6------------------------------|-5-------------------1-----3----|
E |--------------------------------|--------------------------------|

G |--------------------------------|--------------------------------|
D |---------------------1-----3----|--------------------------------|
A |-4------------------------------|-2---------------1--------------|
E |--------------------------------|--------------------------------|

G |--------------------------------|--------------------------------|
D |--------------------------------|--------------------------------|
A |-4------------------------------|-4------------------------------|
E |--------------------------------|-----------------2--------------|

Ending A
G |-----------------------Not sure-|--------------------------------|
D |-----------------------------1*)|--------------------------------| *) Only when prompted
A |----------------------(0-1-2----|--------------------------------|
E |-4------------------------------|-0---------------2--------------|

Break
G |--------------------------------|--------------------------------|
D |--------------------------------|---------------------4-----3----|
A |--------------------------------|--------------------------------|
E |--------------------------------|--------------------------------|

Ending B
G |--------------------------------|--------------------------------|
D |--------------------------------|--------------------------------|
A |--------------------------------|-4------------------------------|
E |-4------------------------------|---------------------------4----|

Pre-Bridge
G |--------------------------------|
D |--------------------------------|
A |--------------------------------|
E |-6------------(6)----6----6-----|

Bridge
G |--------------------------------|--------------------------------|
D |--------------------------------|--------------------------------|
A |-6----6----6----6----6----6-----|--------------------------------|
E |--------------------------------|-4----4----4----4----4----4-----|

G |--------------------------------|--------------------------------|--------------------------------|
D |--------------------------------|--------------------------------|--------------------------------|
A |-4----4----4----4----4----4-----|--------------------------------|--------------------------------|
E |--------------------------------|-2----2----2----2----2----2--x--|--(Stop)------------------------|

Ending C
G |--------------------------------|--------------------------------|
D |---------------------------2----|--------------------------------|
A |-----------------------2--------|--------------------------------|
E |-4------------------------------|-0---------------2--------------|

Ending D
G |--------------------------------|--------------------------------|
D |--------------------------------|--------------------------------|
A |-----------------------1---2----|-4---------------5^6---5^6------|
E |-4------------------------------|-----------------------------6--|

Outro
G |--------------------------------|--------------------------------|
D |--------------------------------|--------------------------------|
A |-4------------------------------|-4------------------------------|
E |--------------------------------|-----------------2--------------|

G |--------------------------------|--------------------------------|
D |--------------------------------|--------------------------------|
A |--------------------------------|--------------------------------|
E |-4------------------------------|-0---------------2--------------|

Order:
[00:00] Main Riff | Ending A  (Yes I am blind...)