You're Gonna Need Someone At Your Side

(Morrissey/Nevin)
			


Main Riff
G |--------------------------------|--------------------------------|
D |--------------------------------|--------------------------------|
A |-6-^-7---7---7---6-^-7---7---6-^|-7---7---7---7---6-^-7---7---7--| For full effect: De-tune your A string a bit.
E |--------------------------------|--------------------------------|

Verse
G |--------------------------------|--------------------------------|
D |--------------------------------|--------------------------------|
A |--------------------------------|--------------------------------|
E |-0---0---3---3---2---2---1---1--|-0---0---3---3---2---2---1---1--|

Verse High
G |--------------------------------|--------------------------------|
D |--------------------------------|--------------------------------|
A |-0---0---3---3---2---2---1---1--|-0---0---3---3---2---2---1---1--|
E |--------------------------------|--------------------------------|

Verse End
G |--------------------------------|--------------------------------|
D |--------------------------------|--------------------------------|
A |-0-^-2---2---0-^-2---2---0-^-2--|-2---2---0---0------------------|
E |--------------------------------|-----------------3---3---2---0--|

Interlude A
G |--------------------------------|--------------------------------|
D |--------------------------------|--------------------------------|
A |-7---7--10--10---9---9---8---8--|-7---7--10--10---9---9---8---8--| Very hard to hear in the mix!
E |--------------------------------|--------------------------------|

Interlude B
G |--------------------------------|--------------------------------|
D |--------------------------------|--------------------------------| Again, very hard to hear in the mix
A |-6-^-7---7---7---6-^-7---7---6-^|-7---7---7---7---6-^-7---7---7--|  and only play it before the Chorus
E |--------------------------------|--------------------------------|

Chorus
G |--------------------------------|--------------------------------|
D |--------------------------------|--------------------------------|
A |-0---0---0---0------------------|-0---0---0---0------------------|
E |--------------------------------|--------------------------------|

G |--------------------------------|--------------------------------|
D |--------------------------------|--------------------------------|
A |--------------------------------|--------------------------------|
E |-0---0---0---0------------------|-0---0---0---0------------------|

G |--------------------------------|--------------------------------|
D |--------------------------------|--------------------------------|
A |-0---0---0---0------------------|--------------------------------|
E |--------------------------------|-2---2---2---2------------------|

G |--------------------------------|--------------------------------|
D |--------------------------------|--------------------------------|
A |-----------------------------2--|-2---0---0----------------------|
E |-2---2---2---2---2---2---2------|-------------3---3---2---2--(0)-|

Order:
[00:00] Main Riff 2x
[00:06] Main Riff 3x | Verse
[00:18] Main Riff 3x | Verse | Verse High | Verse | Verse End
[00:39] Verse | Verse High | Verse | Verse End
[00:51] Interlude A

[00:53] Main Riff 3x | Verse
[01:05] Main Riff 3x | Verse | Verse High | Verse | Verse End
[01:25] Verse | Verse High | Verse | Verse End
[01:37] Interlude B
[01:40] Chorus (And here I am!)